100 Demons — Forsaken

Текст песни 100 Demons — Forsaken + аккорды для гитары

Вступление

d|----------------------------------------------------|
a|----------------------------------------------------|
F|----------------------------------------------------|
C|-0--------3-----------------------------------------| x3
G|-0--------1-----------------------------------------|
C|-0--------3--------00000000000000000000000000000000-|
                     ********************************

d|---------------------------------------------------------------------------------|
a|---------------------------------------------------------------------------------|
F|---------------------------------------------------------------------------------|
C|-0--------3----------------------------------------------------------------------| x1
G|-0--------1--------0-0-0-0-0-0-0-0-0-0-0-0-0-0-0-0-0-0-0-0-0-0-0-0-0-0-0-0-0-0-0-|
C|-0--------3--------0-0-0-0-0-0-0-0-0-0-0-0-0-0-0-0-0-0-0-0-0-0-0-0-0-0-0-0-0-0-0-|
                     * * * * * * * * * * * * * * * * * * * * * * * * * * * * * * *   

d|------------------------------------|
a|------------------------------------|
F|-7----7----7--7/8-------------------|
C|------------------------------------| x3
G|-5----5----5--5/6-------------------|
C|----0----0----------000-0-0-000-0-0-|
      *    *          *** *** **  * *

    d|-------------------------------|
    a|-------------------------------|
GTR F|-7----7----7--7/8--------------|
 1  C|------------------0------------|
    G|-5----5----5--5/6-0-(Let ring)-|
    C|----0---0---------0------------|
          *   *

    d|-----------------------------------|
    a|-----------------------------------|
GTR F|-7----7----7--7/8------------------|
 2  C|-----------------------------------|
    G|-5----5----5--5/6-------pick slide-|
    C|----0---0--------------------------|
          *   *

d|-------------------------------------------------------|
a|-------------------------------------------------------|
F|-------------------------------------------------------|
C|-6---3---4---3---7--3----------------------------------| 1,3
G|-4---1---2---1---7--3----------------------------------|
C|-6---3---4---3---7--3--0-0-0-000-0-0-0-0-0-0-000-0-0-0-|

d|-------------------------------------------------------|
a|-------------------------------------------------------|
F|-------------------------------------------------------|
C|-3---2---5---8---8--8----------------------------------| 2
G|-1---0---3---6---6--6----------------------------------|
C|-3---2---5---8---8--8--0-0-0-000-0-0-0-0-0-0-000-0-0-0-|

d|------------------------------------------------|
a|------------------------------------------------|
F|------------------------------------------------|
C|-3---2---5---8---8--8---------------------------| 4
G|-1---0---3---6---6--6---------------------------|
C|-3---2---5---8---8--8--000000000000000000000000-|
                         ************************

d|------------------------------------|
a|------------------------------------|
F|-7----7----7--7/8-------------------|
C|------------------------------------| x3
G|-5----5----5--5/6-------------------|
C|----0----0----------000-0-0-000-0-0-|
      *    *          *** *** **  * *

    d|-------------------------------|
    a|-------------------------------|
GTR F|-7----7----7--7/8--------------|
 1  C|-------------------------------|
    G|-5----5----5--5/6--------------|
    C|----0---0---------0-(Let ring)-|
          *   *

    d|-----------------------------------|
    a|-----------------------------------|
GTR F|-7----7----7--7/8------------------|
 2  C|-----------------------------------|
    G|-5----5----5--5/6-------pick slide-|
    C|----0---0--------------------------|
          *   *

d|-------------------------------------------------------|
a|-------------------------------------------------------|
F|-------------------------------------------------------|
C|-6---3---4---3---7--3----------------------------------| 1,3
G|-4---1---2---1---7--3----------------------------------|
C|-6---3---4---3---7--3--0-0-0-000-0-0-0-0-0-0-000-0-0-0-|

d|-------------------------------------------------------|
a|-------------------------------------------------------|
F|-------------------------------------------------------|
C|-3---2---5---8---8--8----------------------------------| 2
G|-1---0---3---6---6--6----------------------------------|
C|-3---2---5---8---8--8--0-0-0-000-0-0-0-0-0-0-000-0-0-0-|

d|-------------------------|
a|-------------------------|
F|-------------------------|
C|-3---2---5---8---8--8----| 4
G|-1---0---3---6---6--6--0-|
C|-3---2---5---8---8--8--0-|
                         *

We are forsaken..... then just bass on it's own.

    d|---------------|
    a|---------------|
GTR F|-5*------------|
 1  C|-0--(Ring out)-|
    G|---------------|
    C|---------------|

    d|-------------------------------|
    a|-------------------------------|
GTR F|-------------------------------|
 2  C|-------------------------------|
    G|-pick slide--------------------|
    C|-------------------------------|

d|-----------------------------------|
a|-----------------------------------|
F|-----------------------------------|
C|-0--3--3-----0----0--3--3-----1----|
G|-0--3--3--0--0----0--3--3--0--1----|
C|-0--3--3--0--0----0--3--3--0--1----|

d|------------------------------------------------------------------|
a|------------------------------------------------------------------|
F|--------------2----2-------------2--------------------------------|
C|-0-------3-0--3-0--3--0--0-0-0-0-3-0--0-0------0--1-1-1-1-1-1-1-1-|
G|-0-------3-0----0-----0--0-0-0-0---0--0-0------0--1-1-1-1-1-1-1-1-|
C|-0--3p0--3-0-------------0-0-0-0---0--0-0-2BD--0--1-1-1-1-1-1-1-1-|
                                      
d|--------------------------------------------------------------|
a|--------------------------------------------------------------|
F|--------------------------------------------------------------|
C|-0-0------0-0---0-0-0-0-0-0-0-0-0-0-----0-0-0-1-1-1-1-1-1-1-1-|
G|-0-0------0-0-0-0-0-0-0-0-0-0-0-0-0-----0-0-0-1-1-1-1-1-1-1-1-|
C|-0-0-3p0--0-0-0-0-0-0-0-0-0-0-0-0-0-3p0-0-0-0-1-1-1-1-1-1-1-1-|
                *

d|--------------------------------------------------------------------|
a|--------------------------------------------------------------------|
F|--------------------------------------------------------------------|
C|-0-0------0-0---0---0---0---0--0-0-0------3/5-0-0---1-1-1-1-1-1-1-1-|
G|-0-0------0-0-0-0-0-0-0-0-0-0--0-0-0--0-0-3/5-0-0-0-1-1-1-1-1-1-1-1-|
C|-0-0-3p0--0-0-0-0-0-0-0-0-0-0--0-0-0--0-0-3/5-0-0-0-1-1-1-1-1-1-1-1-|
                *   *   *   *           * *   

d|---------------------------------------------------------|
a|---------------------------------------------------------|
F|---------------------------------------------------------|
C|-0-----------0------1------0--------0-0-0----0-1-------0-|
G|-0-------0-0-0----0-1------0--------0-0-0----0-1-------0-|
C|-0-------0-0-0----0-1------0--------0-0-0----0-1-------0-|

Перевод песни 100 Demons — Forsaken

tsentrsom.ru
Добавить комментарий