16 Volt — Alkali

Текст песни 16 Volt — Alkali + аккорды для гитары

Вступление

16 Volt – Alkali 
(capo 1st Fret) 

e|----|---|---|---|---|---|---|---|---|---|
B|----|---|---|---|---|---|---|---|---|---|
G|----|---|---|---|---|---|---|---|---|---|
D|----|---|---|---|---|---|---|---|---|---|
A|----|---|---|---|---|---|---|---|---|---|
E|-11-|-6-|-4-|-6-|-4-|-6-|-4-|-6-|-7-|-6-|

e|----|---|---|---|---|---|---|---|
B|----|---|---|---|---|---|---|---|
G|----|---|---|---|---|---|---|---|
D|----|---|---|---|---|---|---|---|
A|----|---|---|---|---|---|---|---|
E|-11-|-6-|-4-|-6-|-4-|-6-|-4-|-6-|

D, A, clear, A, clear ,A, clear, A, Bb, A
D, A, clear, A, clear ,A, clear, A

(with clear i mean to strum over the guitar without holding any chord)

    Asus2      C
My skin is opaque
     G          D
Like white seaweed
Asus2         C
Shallow and weak
   G          D
I have no feeling

(Also Em, Cm, G, Asus2 sounds good)

D, A, clear, A, clear ,A, clear, A, Bb,A
See through me
D, A, clear, A, clear ,A, clear, A
Nothing ever makes it through
D, A, clear, A, clear ,A, clear, A, Bb,A
See through me
D, A, clear, A, clear ,A, clear, A
Even though i promised it

Asus2            C
Most worthless shell
       G            D
Like a ghost in a dream
Asus2         C
Cantisending life
     G            D
Like satin white sheath

Chorus

A, A     C C C C C,Bb
Can I 
E, E      G G G G G,F
ask you 
A, A     C C C C C,Bb
something?
E, E      G G G G G,F
Do you see me 
A, A     C C C C C,Bb
near you?
E, E      G G G G G,F
Slowly 
A, A     C C C C C,Bb
going over it
E, E      G G G G G,F
Alkali

2nd Guitar

2nd Guitar

e|-5-|-7-|-5-|-7-|-8-|
B|---|---|---|---|---|
G|---|---|---|---|---|
D|---|---|---|---|---|
A|---|---|---|---|---|
E|---|---|---|---|---|

or 4,6,4,6,7


D, A, clear, A, clear ,A, clear, A, Bb,A
D, A, clear, A, clear ,A, clear, A

e|---|---|---|---|---|---|---|---|---|---|---|---|---|---|---|---|---|---|
B|---|---|---|---|---|---|---|---|---|---|---|---|---|---|---|---|---|---|
G|---|---|---|---|---|---|---|---|---|---|---|---|---|---|---|---|---|---|
D|---|---|---|---|---|---|---|---|---|---|---|---|---|---|---|---|---|---|
A|---|---|---|---|---|---|---|---|---|---|---|---|---|---|---|---|---|---|
E|-6-|-6-|-6-|-9-|-9-|-9-|-9-|-9-|-7-|-1-|-1-|-1-|-4-|-4-|-4-|-4-|-4-|-2-|


You make it all clear
Nothing makes it better
You make it all clear

A, A     C C C C C,Bb   E, E      G G G G G,F
Nothing makes it better
A, A     C C C C C,Bb   E, E      G G  G G G,F
You make it all clear
A, A     C C C C C,Bb   E, E      G G G G G,F
Nothing makes it better
A, A     C C C C C,Bb   E, E      G G G G G,F
You make it all clear
A, A     C C C C C,Bb   E, E      G G G G G,F
Nothing makes it better

Chorus

 A, A     C C C C C,Bb
Can I 
E, E      G G G G G,F
ask you 
A, A     C C C C C,Bb
something?
E, E      G G G G G,F
Do you see me 
A, A     C C C C C,Bb
near you?
E, E      G G G G G,F
Slowly 
A, A     C C C C C,Bb
going over it
E, E      G G G G G,F
Alkali

2nd Guitar

e|-5-|-7-|-5-|-7-|-8-|
B|---|---|---|---|---|
G|---|---|---|---|---|
D|---|---|---|---|---|
A|---|---|---|---|---|
E|---|---|---|---|---|

or 4,6,4,6,7

Have Fun!
Tabbed by JeetJerome

Перевод песни 16 Volt — Alkali

tsentrsom.ru
Добавить комментарий