1974 AD — Mayalu Le

Текст песни 1974 AD — Mayalu Le + аккорды для гитары

Вступление

Song   : Mayalu Le
Band   : 1974 AD
Album  : Time Out

Tuning :EADGBE

|===================|
||  Chords Used:   ||
||=================||
|| G      :320033  ||
|| Cadd9  :x32033  ||
|| Em     :022000  ||
|| Am     :x02210  ||
|| D7     :xx0212  ||
|| F      :133211  ||
|| D      :xx0232  ||
|| C      :x32010  ||
|===================|

|=====================|
|| Tablature Legend: ||
||===================||
|| h - hammer on     ||
|| p - pull off      ||
|=====================|

From : Lama Tsubz

[Intro Plucking:]
   (Use G chord here)
E|-------------------------------|
B|-----3-------3-------3-------3-|
G|---0-------0-------0-------0---|   x4
D|---------------0h2-------------|
A|-------0h2-------------0h2-----|
E|-3-----------------------------|

   (Use Cadd9 chord here)
E|-------------------------------|
B|-----3-------3-------3-------3-|
G|---0-------0???0h2-2-------0---|   x2
D|-------0h2-------------0h2-----|
A|-3-----------------------------|
E|-------------------------------|

   (Again as first)
E|-------------------------------|
B|-----3-------3-------3-------3-|
G|---0-------0-------0-------0---|   x2
D|---------------0h2-------------|
A|-------0h2-------------0h2-----|
E|-3-----------------------------|

[Chorus:]
G         Cadd9 G
Mayalu le   mayalu le 
Cadd9         Em
Mayalu le hamilai
Am   D7     G
Piraima dubayo
G           Cadd9   G
Nisthuri le   nisthuri le
Cadd9           Em
Nisthuri le hamilai
Am    D7      G
Jaalaima pashayo
Am    D7      G
Jaalaima pashayo

[Solo:]
E|-----------------------|         ]
B|-----0---0-1-3-3-0-----|         ]
G|-0h2---2-----------2-0-|         ]
D|-----------------------|         ]
A|-----------------------|         ]
E|-----------------------|         ]
                                   ]   x2
E|-----------------3p----------|   ]
B|-----0---0-1-0------3-3p-----|   ]
G|-0h2---2-----------------2-0-|   ]
D|-----------------------------|   ]
A|-----------------------------|   ]
E|-----------------------------|   ]

[Verse 1:]
G           Am               D7  ]
Mayalu haru yesto hunchan bhani  ]   x2
F           D      G             ]
Maanma kahile basena             ]
G       C         Am
Uniharu papi hunchan bhani
Am                    G
Hridaya ma kahile basena

[Chorus:]
G         Cadd9 G
Mayalu le   mayalu le 
Cadd9         Em
Mayalu le hamilai
Am   D7     G
Piraima dubayo
G           Cadd9   G
Nisthuri le   nisthuri le
Cadd9           Em
Nisthuri le hamilai
Am    D7      G
Jaalaima pashayo
Am    D7      G
Jaalaima pashayo

[Verse 2:]
G       Am               D7  ]
Uniharu jhuto hunchan bhani  ]   x2
F           D      G         ]
Hamilai kahile bhanenan      ]
G         C          Am
Uniharule ruwai janchan bhani
Am                   G
Birsera pani ta bhanenan

[Chorus:]
G         Cadd9 G
Mayalu le   mayalu le 
Cadd9         Em
Mayalu le hamilai
Am   D7     G
Piraima dubayo
G           Cadd9   G
Nisthuri le   nisthuri le
Cadd9           Em
Nisthuri le hamilai
Am    D7      G    ]
Jaalaima pashayo   ]   x4
Am   D7     G      ]
Piraima dubayo     ]

Перевод песни 1974 AD — Mayalu Le

tsentrsom.ru
Добавить комментарий