5 Seconds Of Summer — Teeth

Текст песни 5 Seconds Of Summer — Teeth + аккорды для гитары

Вступление

I know it's technically the bass line, but it's like really fun to play on guitar haha so I'm gonna call it 
the "riff." Michael plays it at the end a couple octaves higher, so let me know if you want a tab on that too 
:).

[Intro]

e|-----------------------------------------------------|
B|-----------------------------------------------------|
G|-----------------------------------------------6-----|
D|---------9-8-----9-8-------------9-8-----9-8---------|
A|-6-6-6-6-----9-6-----9-6-6-6-6-6-----9-6-----9-------|
E|-----------------------------------------------------|

[Verse/Main Riff]

e|-----------------------------------------------------------------------------|
B|-----------------------------------------------------------------------------|
G|-----------------------------------------------6-----------------------------|
D|---------9-8-----9-8-------------9-8-----9-8---------------------------------|
A|-6-6-6-6-----9-6-----9-6-6-6-6-6-----9-6-----9---9-9-9-9-9-8-----9-8---------|
E|-------------------------------------------------------------9-6-----9-6-----|

e|-----------------------------|
B|-----------------------------|
G|-----------------------------|
D|-9-9-9-9-9-8---8---8---6-----|
A|-------------9---------------|
E|-----------------9---9-------|

Перевод песни 5 Seconds Of Summer — Teeth

tsentrsom.ru
Добавить комментарий