…And You Will Know Us by the Trail of Dead — Rest Will Follow

Текст песни …And You Will Know Us by the Trail of Dead — Rest Will Follow + аккорды для гитары

Вступление

Tuning: Standard

...And You Will Know Us by the Trail of Dead: "The Rest Will Follow"


Intro: D D D Dsus4 D D Dsus2 x2

e --2--2--2--3-2-2-0---2--2--2--3-2-2-0--------
b --3--3--3--3-3-3-3---3--3--3--3-3-3-3--------
G --2--2--2--2-2-2-2---2--2--2--2-2-2-2--------
D --0--0--0--0-0-0-0---0--0--0--0-0-0-0--------   x2
A ---------------------------------------------
E ---------------------------------------------

e --2--2--2----2--2--2----2--2--2----2--2--2---- 
b --3--3--3----3--3--3----3--3--3----3--3--3----
G --2--2--0h2--2--2--0h2--2--2--0h2--2--2--0h2--    x4
D --0--0--0----0--0--0----0--0--0----0--0--0----
A ----------------------------------------------
E ----------------------------------------------


Verse 1:

Dmaj7      Bsus2     F#m  A 
   How can anyone be sooo unkind

Dmaj7    Bsus2         F#m               A
   As to want to take another’s peace of mind?

Dmaj7    Bsus2        F#m   A
   Is acceptance so implausible?


e--2--2--2--2--2--2--2--2--2--2--2--2---------------------
b--2--3--2--3--2--3--2--3--2--3--2--3--2--3--2--3---------
G--2--2--2--2--4--4--4--4--2--2--2--2--2--2--2--2---------
D--0--0--0--0--4--4--4--4--4--4--4--4--2--2--2--2---------
A--------------2--2--2--2--4--4--4--4--0--0--0--0---------
E--------------------------2--2--2--2---------------------

Chorus:

     G Bm   D       A   
Well I know how the best will fall

G       Bm        A
And the rest will follow.

G Bm   D       A   
I know how the best will fall

G       Bm        D
And the rest will follow.


e --2--2--2----2--2--2----2--2--2----2--2--2---- 
b --3--3--3----3--3--3----3--3--3----3--3--3----
G --2--2--0h2--2--2--0h2--2--2--0h2--2--2--0h2--    x2
D --0--0--0----0--0--0----0--0--0----0--0--0----
A ----------------------------------------------
E ----------------------------------------------


Verse 2:

Dmaj7    Bsus2      F#m    A
  It’s important to recognize

Dmaj7     Bsus2                  F#m           A
  In this world we live there is nothing worth dying

Dmaj7   Bsus2         F#m              A
  It’s enough to say “hello, we’re all human”


e--2--2--2--2--2--2--2--2--2--2--2--2---------------------
b--2--3--2--3--2--3--2--3--2--3--2--3--2--3--2--3---------
G--2--2--2--2--4--4--4--4--2--2--2--2--2--2--2--2---------
D--0--0--0--0--4--4--4--4--4--4--4--4--2--2--2--2---------
A--------------2--2--2--2--4--4--4--4--0--0--0--0---------
E--------------------------2--2--2--2---------------------


Chorus:

    G Bm   D       A  
But I know how the best will fall

G       Bm        A
And the rest will follow

G Bm   D       A  
I know how the best will fall

G       Bm        D
And the rest will follow

e --2--2--2----2--2--2----2--2--2----2--2--2---- 
b --3--3--3----3--3--3----3--3--3----3--3--3----
G --2--2--0h2--2--2--0h2--2--2--0h2--2--2--0h2--    x2
D --0--0--0----0--0--0----0--0--0----0--0--0----
A ----------------------------------------------
E ----------------------------------------------


Bridge:

G Bm A   
Is it so easy to resign

G Bm A
To ruin this world for everyone?

G Bm A
I guess when it’s all said and done

          G                F#m7
It’s just something in our design.

          G                F#m7
It’s just something in our design.

          G                  D
It’s just something in our design.


e --2--2--2----2--2--2----2--2--2----2--2--2---- 
b --3--3--3----3--3--3----3--3--3----3--3--3----
G --2--2--0h2--2--2--0h2--2--2--0h2--2--2--0h2--    x2
D --0--0--0----0--0--0----0--0--0----0--0--0----
A ----------------------------------------------
E ----------------------------------------------


Verse 3:


Dmaj7    Bsus2      F#m       A
  We are all of us so capable of

Dmaj7          Bsus2                F#m           A
  The greatest acts of hate and the worst acts of love

Dmaj7      Bsus7                F#m            A
  I wonder sometimes what’s the matter with us all


e--2--2--2--2--2--2--2--2--2--2--2--2---------------------
b--2--3--2--3--2--3--2--3--2--3--2--3--2--3--2--3---------
G--2--2--2--2--4--4--4--4--2--2--2--2--2--2--2--2---------
D--0--0--0--0--4--4--4--4--4--4--4--4--2--2--2--2---------
A--------------2--2--2--2--4--4--4--4--0--0--0--0---------
E--------------------------2--2--2--2---------------------


Chorus:

    G Bm   D       A  
And I know how the best will fall

G       Bm        A
And the rest will follow…

G Bm   D       A       
I know how the best will fall

G       Bm        D
And the rest will follow…

Outro:

e --2--2--2--3p2-2p0---2--2--2--3p2-2p0---
b --3--3--3--3-3-3-3---3--3--3--3-3-3-3---
G --2--2--2--2-2-2-2---2--2--2--2-2-2-2---  x2
D --0--0--0--0-0-0-0---0--0--0--0-0-0-0---
A ----------------------------------------
E ----------------------------------------


h - hammer on 
p - pull off 
b - bend string up
r - release bend
/ - slide up
 - slide down
v - vibrato (sometimes written as ~)
t - right hand tap
x - play 'note' with heavy damping

Перевод песни …And You Will Know Us by the Trail of Dead — Rest Will Follow

tsentrsom.ru
Добавить комментарий