A. Cinco — Estar Contigo

Текст песни A. Cinco — Estar Contigo + аккорды для гитары

Вступление

Intro:

E|------------------------------------------|
B|-------1-------------------------1--------|
G|-----0---0-------2^0-----------0---0------|
D|---2-------2-3-------3-2-----2-------2-3--|
A|-3-------------------------3--------------|
E|------------------------------------------|

E|----8-7-8-------------------------------------|
B|--8-------8-8--5-6---5-6-8^10-8-6-5-3-1-0-1-3-|
G|----------------------------------------------|
D|----------------------------------------------|
A|----------------------------------------------|
E|----------------------------------------------|

C                    F
Déjame, entrar a tu corazón
Dm                 G           C      F-G
Poquito a poco hasta ganar tu amor
C                       F
Llévame, contigo hasta recorrer
    Am                Dm          G
Los secretos que tu guardas en la piel

Pre-Coro

F                G               C
Y te voy a amar, como nunca yo amé
      Em         Am        Dm          G
Y te vas a enamorar, como siempre lo soñé


Coro
              C           Em           F      
Es que estar contigo me resulta tan hermoso
Am       Dm         G       F             G
Si a tu lado puedo ser la luz de tu amanecer
          C           Em 
Porque contigo olvidaré el pasado
    F          G              C
Si vienes a mi lado, me hará bien                 

C                           F
Yo quiero ser, el dueño de tu querer
  Dm                    G               C      F-G
Y lentamente amar hasta hacerte enloquecer
C                          F
Y Llévame, contigo hasta recorrer
     Am               Dm           G
Los secretos que tu guardas en la piel


Pre-coro

Coro
              C           Em           F      
Es que estar contigo me resulta tan hermoso
Am       Dm         G       F             G
Si a tu lado puedo ser la luz de tu amanecer
          C           Em 
Porque contigo olvidaré el pasado
    F          G              C    Am
Si vienes a mi lado, me hará bien
       F                    G#
Porque contigo puedo ser la luz de tu amanecer

Arpegio: C#-F#-Dm#-G#
       C#             E#             F#            G#
Porque contigo olvidaré el pasado, si vienes a mi lado, me hará bien
C#   E#     F#     G#     C#    
Tu eres el sol de mi amanecer.

Перевод песни A. Cinco — Estar Contigo

tsentrsom.ru
Добавить комментарий