Aaron Fraser-Nash — John Wick Sings A Song Chapter 1 And 2 Summary Rap For Parabellum

Текст песни Aaron Fraser-Nash — John Wick Sings A Song Chapter 1 And 2 Summary Rap For Parabellum + аккорды для гитары

Вступление

[Intro]

e|-------5-------4---------5-------4-|
B|-----2-------1---------2-------1---|
G|---2-------1---------2-------1-----|
D|-----------------------------------|
A|-----------------------------------|
E|-----------------------------------|

e|-------5-------4---------5-------4-|
B|-----2-------1---------2-------1---|
G|---2-------1---------2-------1-----|
D|-----------------------------------|
A|-----------------------------------|
E|-----------------------------------|

[Verse 1]
  2 million on my head, I ain’t break a sweat, 7 million on my head, but look who winds up dead,
e|------------5-----------------4-----------------------5-------------------------------4------|
B|------2-----------------1-----------------------2-------------------------------1------------|
G|2----------------1------------------------2-------------------------------1------------------|
D|---------------------------------------------------------------------------------------------|
A|---------------------------------------------------------------------------------------------|
E|---------------------------------------------------------------------------------------------|

Same tab throughout. Only change is some parts have drum beats.

Перевод песни Aaron Fraser-Nash — John Wick Sings A Song Chapter 1 And 2 Summary Rap For Parabellum

tsentrsom.ru
Добавить комментарий