Aaron Freeman — Covert Discretion

Текст песни Aaron Freeman — Covert Discretion + аккорды для гитары

Вступление

Covert Discretion
Aaron Freeman
Freeman (2014)

Intro riff:
    Em       Gmaj7    C2      G        C2       G      A7     D4
E|--3-----3--2-----2-------------------------------------------------------
B|----0--------0------3---3/5-3-----3--3---3/5--3----3--2-------3-----3----
G|------0--------0------0-------0--------0--------0-------0-------0-----0--
D|--2-----2--0-----0--------------0-----------------0-------2/4-----4------
A|--------------------3---3/5-2--------3---3/5--2-------0------------------
E|-------------------------------------------------------------------------

Verse:
    Em       Gmaj7    C2        G       C2       G        A7
E|--3-----3--2-----2---------0----------------0-----------------0-----0----
B|----0--------0-------3--------3-------3--------3--------2-------2--------
G|------0--------0-------0--------0---0---0--------0---0----0-------0---0--
D|--2-----2--0----(0)------0--------0-------0--------0--------2------------
A|---------------------3-----3--2-------3-----3--2--------0----------------
E|-------------------------------------------------------------------------
    Covert Discretion  in the hotel    ain't it always   same?
                        room                 the

Em      Gmaj7    C2       G          C2        G      A7
Another gig now, got an achin' head, and I'm back on display
Em       Gmaj7
Ain't no thing, though
C2           G      C2    G        A7
All the fans agree:  We killed it tonight
Em          Gmaj7  C2       G    C2       G          A7
Back at the hotel, watching CNN, still scared for my life    

    B7                 Em    D    C
E|----------2----------0--0--2--2--------0-----0----
B|--------0---0--------0--0--3--3----------1-----1--
G|------2-------2------0--0--2--2------0-----0------
D|----1-----------1----2--2--0--0----2--------------
A|--2---------------2--2--2--------3----------------
E|---------------------0--0-------------------------
     So where is the   party going  on?

B7              Em      D     C
It's no fair to make me stay alone

Em          Gmaj7    C2        G          C2        G        A7
Down in the lobby, there's a couple left, have them buy me a round
Em       Gmaj7        C2       G          C2       G             A7
I'm your best friend, I'm your superstar, yeah I'm down with the brown
Em        Gmaj7     C2       G           C2        G          A7
We in the bathroom, let's be super-cool, you got a little bit left
Em     Gmaj7          C2       G           C2      G           A7
What a special thing, I'm your trophy boy, get the fuck out my face

B7       Em      D    C
You will go home satisfied
B7              Em      D       C
And I'll be blacked out for the night

Em     Gmaj7   C2      G         C2      G          A7
In the morning I can't remember, I can't remember a thing
Em         Gmaj7    C2         G          C2        G          A7
I'm on the bus now, they won't look at me, man it's always the same
Em    Gmaj7   C2   G             C2        G            A7
I'm a-broken, why can't you see? Can't you give me your hand?
Em         Gmaj7    C2      G         C2        G          A7
No I'm the bad guy, don't appreciate, don't you know who I am?

B7             Em  D       C
I'm on my last leg I can't see
B7                 Em   D    C
I wasn't trying to blow your fantasy

Em      Gmaj7       C2         G           C2       G
Another chance now, I'm on the stage again but this time I don't

E|--0~--
B|--2~--
G|--0~--
D|--2~--
A|--0~--
E|------(rake, let ring)
    fly
Em           Gmaj7    C2           G     C2       G       A7
You all just left me, just walked away, alone up there to die
Em         Gmaj7          C2      G      C2     G       A7
It was the next day got a couple calls making sure I'm alive
Em            Gmaj7     C2    G          C2        G        A7
Man you gotta end this, just walk away, your money or your life

B7               Em        D       C
So save your judgments for someone else
B7                Em       D       C
And be grateful I saved me from myself

Transition:
C   (x35553)

G                        E
Fuck you all, I've got a reason to live
        Am          D
And I'm never gonna die
(x4 with solo)

End cold on D 4th time.

Перевод песни Aaron Freeman — Covert Discretion

tsentrsom.ru
Добавить комментарий