Afi — Morningstar

Текст песни Afi — Morningstar + аккорды для гитары

Вступление

Intro
Open Hi-Hat
[HH ----x-------x-------
T  --------------oo----
SD ----o-------o-------
F  ----------------o---
BD --O---O---O---------

C  X--------------X----------------X---------------X---------------
R  --------------------xxxxxxxxxxxxxxxxxxxxxxxxxxxxxxxxxxxxxxxxxxxx
HH --x-x-x-x-x-x-x-xxxxxxxxxxxxxxxx----o-------o-------o-------o---
SD ----o-------o---------------------------------------------------
BD O------OO------OOOOOOOOOOOOOOOOOO------OO------OO------OO-O----O

C  X--------------X----------------X---------------X---------------
R  xxxxxxxxxxxxxxxx----XXXXXXXXXXXXxxxxxxxxxxxxxxxxxxxxxxxxxxxxxxxx
HH ----------------xxxxxxxxxxxxxxxx--------------------------------
SD ----o-------o-----------------------o-------o-------o-------o---
BD O------OO-O-----OOOOOOOOOOOOOOOOO------OO------OO------OO-O----O

C  --------X-------
R  xxxxxxxxx-------
SD ----o-----------
BD O------OO-------]   END

-

pm - palm mute
 - slide to
In part two you will see an open A between each chord change. Do that for
most of the song when he plays open chords.

Intro/Part One
[e--------------------------
B--------------------------
G--------------------------
D-9--9--6--6---2--4--6-----
A-7--6--4--4---0--2--4-----
E--------------------------]
  pm....................

Part Two
[e-------------------------------------------------------------------4-5-4--
B-------------------------------------------------------------------4-4-4--
G------------------------------------------3---4---6---9--------4---6-6-6--
D-9-9-6--6--2-----2------4----6-6-6-6------4---4---6---9---7----4---6-6-6--
A-7-6-4--4--0---4----4-4---4---------------4-0-2-0-4-0-7-0-7-0--2-0-4-4-4--
E------------------------------------------2---------------5---------------]
   pm.........

Breakdown
[e-----------------------------------------------------------
B-----------------------------------------------------------
G-----------------------2-4---------6--4--------6--4--------
D-6---4---2-------6-4-2-2-4---------6--4--7--4--6--4--7-----
A-4---2---0---4---4-2-0-0-2---------4--2--7--4--4--2--7-----
E-------------2---------------------------5--2--------5-----]
  pm....................             (all downstrokes)

End
[e-------------0------------------------0----------------------
B-------------2------------------------2----------------------
G-----4--6----2--4-6--5------4-2-------2--4-6--5------4-------
D-2---4--6----2--4-6--5--7---4-2-------2--4-6--5--7---4/6-----
A-2---2--4----0--2-4--7--7---2-4-------0--2-4--7--7---2/4-----
E-0---2--4-------2-4--7--5---2-4----------2-4--7--5---2-------]

Перевод песни Afi — Morningstar

tsentrsom.ru
Добавить комментарий