Y&T — La Rocks

Текст песни Y&T — La Rocks + аккорды для гитары

Вступление

-----------------------------------------------------------------------------
                       L.A. Rocks - Y&T (BASS)
                       
-----------------------------------------------------------------------------
Tabbed by: Scotto10

Tuning: standard

submitted Feb 08 2019
=============================================================================                       
                                                                                                  
Bass



     W                   W                   W                 
G||-------------------|-------------------|-------------------|
D||-------------------|-------------------|-------------------|
A||-------------------|-------------------|-------------------|
E||-------------------|-------------------|-------------------|


  W                   W                   Q    E  E  H         
-------------------|-------------------|----------------------|
-------------------|-------------------|----------------------|
-------------------|-------------------|----------------------|
-------------------|-------------------|-------0--------------|


  W                   Q    E  E  Q    E  E     W                 
-------------------|------------------------|-------------------|
-------------------|------------------------|-------------------|
-------------------|------------------------|-------------------|
-------------------|-------0----------0-----|-------------------|


  E  E  E  E  E  E  E  E     E  E  E  E  E  E  E  E   
--------------------------|--------------------------|
--------------------------|--------------------------|
--------------------------|--------------------------|
--0--0--0--0--0--0--0--0--|--0--0--0--0--0--0--0--0--|


  E  E  E  E  E  E  E  E     E  E  E  E  H           W                 
--------------------------|-----------------------|-------------------|
--------------------------|--7--6-----------------|-------------------|
--------------------------|--------7--0--L--------|--L----------------|
--0--0--0--0--0--0--0--0--|-----------------------|-------------------|


  H           E  E  E  E  E  E  E  E     E  E  E  E  E  E  E  E   
-----------|--------------------------|--------------------------|
-----------|--------------------------|--------------------------|
-----------|--------------------------|--------------------------|
-----------|--0--0--0--0--0--0--0--0--|--0--0--0--0--0--0--0--0--|


  E  E  E  E  E  E  E  E     E  E  E  E  E  E  E  E   
--------------------------|--------------------------|
--------------------------|--------------------------|
--3--3--3--3--5--5--5-----|--------------------------|
-----------------------0--|--L--0--0--0--0--0--0--0--|


  E  E  E  E  E  E  E  E     E  E  E  E  E  E  E  E   
--------------------------|--------------------------|
--------------------------|--------------------------|
--------------------------|--------------------------|
--0--0--0--0--0--0--0--0--|--0--0--0--0--0--0--0--0--|


  E  E  E  E  E  E  E  E     E  E  E  E  E  E  E  E     Q    Q     E  E  E  E   
--------------------------|--------------------------|-------------------------|
--------------------------|--------------------------|-------------------------|
--3--3--3--3--5--5--5-----|--------------------------|-------3b----------------|
-----------------------0--|--L--0--0--0--0--0--0--5--|--L----------5--------5--|


  Q    Q     E  E  E  E     Q    Q     E  E  E  E     E  E  Q    Q    E  E   
-------------------------|-------------------------|------------------------|
-------------------------|-------------------------|------------------------|
-------------------------|-------------------------|------------------------|
--L----3b----5--------0--|--L----3b----0--------0--|-----0---------------5--|


  Q    Q     E  E  E  E     Q    Q     E  E  E  E     E  E  E  E  E  E  E  E   
-------------------------|-------------------------|--------------------------|
-------------------------|-------------------------|--------------------------|
-------3b----------------|-------------------------|-----------------------5--|
--L----------5--------5--|--L----3b----5-----------|-----7--7-----7--7--------|


  W                   E  E  E  E  E  E  E  E     E  E  E  E  E  E  E  E   
-------------------|--------------------------|--------------------------|
-------------------|--------------------------|--------------------------|
--L----------------|--------------------------|--------------------------|
-------------------|--0--0--0--0--0--0--0--0--|--0--0--0--0--0--0--0--0--|


  E  E  E  E  E  E  E  E     E  E  E  E  E  E  E  E   
--------------------------|--------------------------|
--------------------------|--------------------------|
--------------------------|--------------------------|
--0--0--0--0--0--0--0--0--|--0--0--0--0--0--0--0--0--|


  E  E  E  E  E  E  E  E     E  E  E  E  E  E  E  E   
--------------------------|--------------------------|
--------------------------|--------------------------|
--------------------------|--------------------------|
--0--0--0--0--0--0--0--0--|--0--0--0--0--0--0--0--0--|


  E  E  E  E  E  E  E  E     E  E  E  E  H           Q     Q      
--------------------------|-----------------------|--------------|
--------------------------|-----------------------|--------------|
--------------------------|-----------------------|--------------|
--0--0--0--0--0--0--0--0--|--5--4--0--5--L--------|--L----10----|


  E  E  E  E  E  E  E  E     E  E  E  E  E  E  E  E   
--------------------------|--------------------------|
--------------------------|--------------------------|
--------------------------|--------------------------|
--0--0--0--0--0--0--0--0--|--0--0--0--0--0--0--0--0--|


  E  E  E  E  E  E  E  E     E  E  E  E  E  E  E  E   
--------------------------|--------------------------|
--------------------------|--------------------------|
--3--3--3--3--5--5--5-----|--------------------------|
-----------------------0--|--L--0--0--0--0--0--0--0--|


  E  E  E  E  E  E  E  E     E  E  E  E  E  E  E  E   
--------------------------|--------------------------|
--------------------------|--------------------------|
--------------------------|--------------------------|
--0--0--0--0--0--0--0--0--|--0--0--0--0--0--0--0--0--|


  E  E  E  E  E  E  E  E     E  E  E  E  E  E  E  E     Q    Q     E  E  E  E   
--------------------------|--------------------------|-------------------------|
--------------------------|--------------------------|-------------------------|
--3--3--3--3--5--5--5-----|--------------------------|-------3b----------------|
-----------------------0--|--L--0--0--0--0--0--0--5--|--L----------5--------5--|


  Q    Q     E  E  E  E     Q    Q     E  E  E  E     E  E  Q    Q    E  E   
-------------------------|-------------------------|------------------------|
-------------------------|-------------------------|------------------------|
-------------------------|-------------------------|------------------------|
--L----3b----5--------0--|--L----3b----0--------0--|-----0---------------5--|


  Q    Q     E  E  E  E     Q    Q     E  E  E  E     E  E  E  E  E  E  E  E   
-------------------------|-------------------------|--------------------------|
-------------------------|-------------------------|--------------------------|
-------3b----------------|-------------------------|-----------------------5--|
--L----------5--------5--|--L----3b----5-----------|-----7--7-----7--7--------|


  W                   E  E  E  E  E  E  E  E     E  E  E  E  E  E  E  E   
-------------------|--------------------------|--------------------------|
-------------------|--------------------------|--------------------------|
--L----------------|--------------------------|--------------------------|
-------------------|--0--0--0--0--0--0--0--0--|--0--0--0--0--0--0--0--0--|


  E  E  E  E  E  E  E  E     E  E  E  E  E  E  E  E   
--------------------------|--------------------------|
--------------------------|--------------------------|
--------------------------|--------------------------|
--0--0--0--0--0--0--0--0--|--0--0--0--0--0--0--0--0--|


  E  E  E  E  E  E  E  E     E  E  E  E  E  E  E  E   
--------------------------|--------------------------|
--------------------------|--------------------------|
--------------------------|--------------------------|
--0--0--0--0--0--0--0--0--|--0--0--0--0--0--0--0--0--|


  E  E  E  E  E  E  E  E     E  E  E  E  E  E  E  E   
--------------------------|--------------------------|
--------------------------|--------------------------|
--------------------------|--------------------------|
--0--0--0--0--0--0--0--0--|--0--0--0--0--0--0--0--0--|


  E  E  E  E  E  E  E  E     E  E  E  E  E  E  E  E   
--------------------------|--------------------------|
--------------------------|--------------------------|
--------------------------|--------------------------|
--0--0--0--0--0--0--0--0--|--0--0--0--0--0--0--0--0--|


  E  E  E  E  E  E  E  E     E  E  E  E  E  E  E  E   
--------------------------|--------------------------|
--------------------------|--------------------------|
--------------------------|--------------------------|
--0--0--0--0--0--0--0--0--|--0--0--0--0--0--0--0--0--|


  E  E  E  E  E  E  E  E     E  E  E  E  E  E  E  E   
--------------------------|--------------------------|
--------------------------|--------------------------|
--------------------------|--------------------------|
--0--0--0--0--0--0--0--0--|--0--0--0--0--0--0--0--0--|


  E  E  E  E  E  E  E  E     E  E  E  E  E  E  Q       Q    Q    E  E  E  E   
--------------------------|-------------------------|------------------------|
--------------------------|--7--6--------5--4-------|------------------------|
--------------------------|--------7-----------5----|--3----3----3--3--3--5--|
--0--0--0--0--0--0--0--0--|-----------7-------------|------------------------|


  E  E  Q    E  E  Q       Q    Q    E  E  E  E     E  E  Q    Q    Q     
------------------------|------------------------|-----------------------|
------------------------|------------------------|-----------------------|
--L--5--5----5--5--5----|------------------------|-----------------------|
------------------------|--1----1----1--1--1--3--|--L--3--3----3----3----|


  Q    Q    E  E  Q       E  E  Q    E  E  E  E     E   E  E  E  E  E  E  E   
-----------------------|-------------------------|---------------------------|
-----------------------|-------------------------|---------------------------|
--0----0----0--0--0----|--2--2--2----5--5--5--7--|--L-----------------------|
-----------------------|-------------------------|------0--0--0--0--0--0--0--|


  E  E  E  E  E  E  E  E     E  E  E  E  E  E  E  E   
--------------------------|--------------------------|
--------------------------|--------------------------|
--------------------------|--------------------------|
--0--0--0--0--0--0--0-----|--0--0--0--0--0--0--0--0--|


  E  E  E  E  E  E  E  E     E  E  E  E  E  E  E  E   
--------------------------|--------------------------|
--------------------------|--------------------------|
--------------------------|--------------------------|
--0--0--0--0--0--0--0--0--|--0--0--0--0--0--0--0--0--|


  E  E  E  E  E  E  E  E     E  E  E  E  E  E  E  E   
--------------------------|--------------------------|
--------------------------|--------------------------|
--------------------------|--------------------------|
--0--0--0--0--0--0--0--0--|--0--0--0--0--0--0--0--0--|


  E  E  E  E  E  E  E  E     E  E  E  E  E  E  E  E   
--------------------------|--------------------------|
--------------------------|--------------------------|
--------------------------|--------------------------|
--0--0--0--0--0--0--0--0--|--0--0--0--0--0--0--0--0--|


  E  E  E  E  E  E  E  E     Q    Q     E  E  E  E     Q    Q     E  E  E  E   
--------------------------|-------------------------|-------------------------|
--7--6--------5--4--------|-------------------------|-------------------------|
--------7-----------5-----|-------3b----------------|-------------------------|
-----------7-----------5--|--L----------5--------5--|--L----3b----5--------0--|


  Q    Q     E  E  E  E     E  E  Q    Q    E  E     Q    Q     E  E  E  E   
-------------------------|------------------------|-------------------------|
-------------------------|------------------------|-------------------------|
-------------------------|------------------------|-------3b----------------|
--L----3b----0--------0--|-----0---------------5--|--L----------5--------5--|


  Q    Q     E  E  E  E     E  E  E  E  E  E  E  E     W                       
-------------------------|--------------------------|-------------------|-----|
-------------------------|--------------------------|-------------------|-----|
-------------------------|-----------------------5--|--L----------------|-----|
--L----3b----5-----------|-----7--7-----7--7--------|-------------------|-----|


  Q    E  E  E  E  E  E     E  E  E  E  E  E  E  E     E  E  E  E  E  E  E  E   
-------------------------|--------------------------|--------------------------|
-------------------------|--------------------------|--------------------------|
-------7--7--7--7--7--7--|--7--7--7--7--7--7--7--7--|--7--7--7--7--7--7--7--7--|
-------------------------|--------------------------|--------------------------|


  E  E  E  E  E  E  E  E     E  E  E  E  E  E  E  E   
--------------------------|--------------------------|
--------------------------|--------------------------|
--7--7--7--7--7--7--7--7--|--7--7--7--7--7--7--7--7--|
--------------------------|--------------------------|


  E  E  E  E  E  E  E  E     E  E  E  E  E  E  E  E   
--------------------------|--------------------------|
--------------------------|--------------------------|
--7--7--7--7--7--7--7--7--|--7--7--7--7--7--7--7--7--|
--------------------------|--------------------------|


  E  E  E  E  E  E  E  E     E  E  E  E  E  E  E  E   
--------------------------|--------------------------|
--------------------------|--------------------------|
--7--7--7--7--7--7--7--7--|--7--7--7--7--7--7--7--7--|
--------------------------|--------------------------|


  E  E  E  E  E  E  E  E     E  E  E  E  E  E  E  E   
--------------------------|--------------------------|
--------------------------|--------------------------|
--7--7--7--7--7--7--7--7--|--7--7--7--7--7--7--7--7--|
--------------------------|--------------------------|


  E  E  E  E  E  E  E  E     E  E  E  E  E  E  E  E   
--------------------------|--------------------------|
--------------------------|--------------------------|
--7--7--7--7--7--7--7--7--|--7--7--7--7--7--7--7--7--|
--------------------------|--------------------------|


  E  E  E  E  E  E  E  E     E  E  E  E  E  E  E  E     E  E  E  Q     E   
--------------------------|--------------------------|--------------------|
--------------------------|--------------------------|--------------------|
--7--7--7--7--7--7--7--7--|--7--7--7--7--7--7--7--7--|--7--7--7--7-------|
--------------------------|--------------------------|-----------------5--|


  Q    Q     E  E  E  E     Q    Q     E  E  E  E     Q    Q     E  E  E  E   
-------------------------|-------------------------|-------------------------|
-------------------------|-------------------------|-------------------------|
-------3b----------------|-------------------------|-------------------------|
--L----------5--------5--|--L----3b----5--------0--|--L----3b----0--------0--|


  E  E  Q    Q    E  E     Q    Q     E  E  E  E     Q    Q     E  E  E  E   
------------------------|-------------------------|-------------------------|
------------------------|-------------------------|-------------------------|
------------------------|-------3b----------------|-------------------------|
-----0---------------5--|--L----------5--------5--|--L----3b----5-----------|


  E  E  E  E  E  E  E  E     W                   E  E  E  E  E  E  E  E   
--------------------------|-------------------|--------------------------|
--------------------------|-------------------|--------------------------|
-----------------------5--|--L----------------|--------------------------|
-----7--7-----7--7--------|-------------------|--0--0--0--0--0--0--0--0--|


  E  E  E  E  E  E  E  E     E  E  E  E  E  E  E  E   
--------------------------|--------------------------|
--------------------------|--------------------------|
--------------------------|--------------------------|
--0--0--0--0--0--0--0--0--|--0--0--0--0--0--0--0--0--|


  E  E  E  E  E  E  E  E     E  E  E  E  E  E  E  E   
--------------------------|--------------------------|
--------------------------|--------------------------|
--------------------------|--------------------------|
--0--0--0--0--0--0--0--0--|--0--0--0--0--0--0--0--0--|


  E  E  E  E  E  E  E  E     E  E  E  E  E  E  E  E   
--------------------------|--------------------------|
--------------------------|--------------------------|
--------------------------|--------------------------|
--0--0--0--0--0--0--0--0--|--0--0--0--0--0--0--0--0--|


  E  E  E  E  E  E  E  E     E  E  E  E  E  E  E  E   
--------------------------|--------------------------|
--------------------------|--------------------------|
--------------------------|--------------------------|
--0--0--0--0--0--0--0--0--|--0--0--0--0--0--0--0--0--|


  E  E  E  E  E  E  E  E     E  E  E  E  E  E  E  E   
--------------------------|--------------------------|
--------------------------|--------------------------|
--------------------------|--------------------------|
--0--0--0--0--0--0--0--0--|--0--0--0--0--0--0--0--0--|


  E  E  E  E  E  E  E  E     E  E  E  E  E  E  E  E   
--------------------------|--------------------------|
--------------------------|--------------------------|
--------------------------|--------------------------|
--0--0--0--0--0--0--0--0--|--0--0--0--0--0--0--0--0--|


  E  E  E  E  E  E  E  E     E  E  E  E  E  E  E  E     E  E  E  E  E  E  Q     
--------------------------|--------------------------|-------------------------|
--------------------------|--------------------------|--7--6--------5--4-------|
--------------------------|--------------------------|--------7-----------5----|
--0--0--0--0--0--0--0--0--|--0--0--0--0--0--0--0--0--|-----------7-------------|


  E  E  E  E  E  E  E  E     E  E  E  E  E  E  E  E   
--------------------------|--------------------------|
--------------------------|--------------------------|
--------------------------|--------------------------|
--0--0--0--0--0--0--0--0--|--0--0--0--0--0--0--0--0--|


  E  E  E  E  E  E  E  E     E  E  E  E  E  E  E  E   
--------------------------|--------------------------|
--------------------------|--------------------------|
--------------------------|--------------------------|
--0--0--0--0--0--0--0--0--|--0--0--0--0--0--0--0--0--|


  E  E  E  E  E  E  E  E     E  E  E  E  E  E  E  E   
--------------------------|--------------------------|
--------------------------|--------------------------|
--------------------------|--------------------------|
--0--0--0--0--0--0--0--0--|--0--0--0--0--0--0--0--0--|


  E  E  E  E  E  E  E  E     E  E  E  E  E  E  E  E     W                 
--------------------------|--------------------------|-------------------|
--------------------------|--7--6--------5--4--------|-------------------|
--------------------------|--------7-----------5-----|-------------------|
--0--0--0--0--0--0--0--0--|-----------7-----------0--|--L----------------|


  W                   H                   
-------------------|--------------------||
-------------------|--------------------||
-------------------|--------------------||
--L----------------|--L-----------------||




Duration Legend
---------------
W - whole
H - half
Q - quarter
E - 8th
S - 16th
. - note dotted
|-n-|  - n-tuplets


Tablature Legend
----------------
L - tied note
x - dead note
(n) - ghost note
> - accentuded note
h - hammer on
p - pull off
b - bend
br - bendRelease
pb - preBend
pbr - preBendRelease
brb - bendReleaseBend
/ -  slide into from below or out of upwards
 -  slide into from above or out of downwards

Перевод песни Y&T — La Rocks

tsentrsom.ru
Добавить комментарий