Yes — Roundabout

Текст песни Yes — Roundabout + аккорды для гитары

Вступление

Main Riff:
e|-----------------------
B|-----------------------
G|-----------------------
D|-2-2--4--5--4--5--4--2-
A|-2-2--4--5--4--5--4--2-
E|-0-0--2--3--2--3--2--0-

Bridge: (with Distortion)
e|-----------------------
B|-----------------------
G|-2-2--4--5--4--5--4--2-
D|-2-2--4--5--4--5--4--2-
A|-0-0--2--3--2--3--2--0-
E|-----------------------

Перевод песни Yes — Roundabout

tsentrsom.ru
Добавить комментарий