Yorn Pete — Life On A Chain

Текст песни Yorn Pete — Life On A Chain + аккорды для гитары

Вступление

Tabbed by:Nicole
Email:[email protected]

Tuning:standard

    verse
e|---1----------------------------------------------------------------------|
B|---0----1---1--------Listen-to song for strum---pattern-------------------|
G|---0----2---0-------------------------------------------------------------|
D|---0----2---2-------------------------------------------------------------|
A|---3----0---3-------------------------------------------------------------|
E|---2----------------------------------------------------------------------|

    Chorus             Listen to song for strum pattern
e|---1-----------3----------------------------------------------------------|
B|---2---1---0---3----------------------------------------------------------|
G|---1---0---0---0----------------------------------------------------------|
D|---0---2---2---0----------------------------------------------------------|
A|-----------2--------------------------------------------------------------|
E|--------------------------------------------------------------------------|

    solo
e|--------------------------------------------------------------------------|
B|--------------------------------------------------------------------------|
G|--------------------------------------------------------------------------|
D|--------------------------------------------------------------------------|
A|--000000-2222--222222--210000---------------------------------------------|
E|-------------------------------0222232000---------------------------------|

Email me if you have any comments or questions

Перевод песни Yorn Pete — Life On A Chain

tsentrsom.ru
Добавить комментарий