You Am I — Forget It Sister

Текст песни You Am I — Forget It Sister + аккорды для гитары

Вступление

Forget It Sister - You Am I
Capo: 2

[Verse 1]
           F       G            C                 Am
Good mornin' baby,  I've been starin' at you for days,
      F         G               C               Am
Is there a little corner, of your heart that I can claim,
                                      F         C   C/G   C
Cos I ain't slept for days,  ginger wine and lemonade,

[Verse 2]
          F           G           C                      Am
I dig ya cos  you understand,  while I wash my face an' wash my hands,
      F           G           C                   Am
A hundred times a day,  an' does it really mean I'm going insane,
                                  F       Fm
An' if that way I fall,  I'll print ya face on every wall,

[Chorus]
C               Am        F               G
Do you think that it's time we forgot about the local,
C                  Am                F                G
The real estate man, your christmas tan, the bills and your bi-focals,
C               Am           F        G
Leave the suburban crawl, the city gentry but,
C          Am             F          G
Forget it sister,  I ain't goin' to the country,

F                  Fm                 C     C/G     C
        Ahhhhhh ..........    Ahh

            G#
We could live on mashed potatoes,
                                 C      C/G   C
Beer and leave the shitty neighbours behind,
G#
Ditch the crappy records,
                                         Bb
Grab the portable an' see what we'll find,
            C
Over that side ...

[Solo]

e|--------------------------0---1--3---------5-----7-----8---7---5-------|
B|--------------0---1---3------------------------------------------------|
G|----0---2--------------------------------------------------------------|
D|-----------------------------------------------------------------------|
A|-----------------------------------------------------------------------|
E|-----------------------------------------------------------------------|

e|----7---5---3--------5---3---1------3---1---0----1---------------------|
B|---------------------------------------------------------------8----5--|
G|-----------------------------------------------------------------------|
D|-----------------------------------------------------------------------|
A|-----------------------------------------------------------------------|
E|-----------------------------------------------------------------------|

e|----7------8---7---5---7--------8---7---------------------------7---8--|
B|-------------------------------------------10---8-------8---10---------|
G|-----------------------------------------------------------------------|
D|-----------------------------------------------------------------------|
A|-----------------------------------------------------------------------|
E|-----------------------------------------------------------------------|

e|--10---12------10---8---7---7---5----------8---7---5------7---5---3--  |
B|-----------------------------------------------------------------------|
G|-----------------------------------------------------------------------|
D|-----------------------------------------------------------------------|
A|-----------------------------------------------------------------------|
E|-----------------------------------------------------------------------|

e|-----1--------3---1-----3(p)1----------------------------------------0-|
B|-------------------------------------3---------------0---1---3---3-----|
G|--------------------------------------------0---2----------------------|
D|-----------------------------------------------------------------------|
A|-----------------------------------------------------------------------|
E|-----------------------------------------------------------------------|

            G#
We could live on mashed potatoes,
                                         C      C/G   C
Beer and leave the shitty neighbours behind,
G#
Ditch the crappy records,
                                         Bb
Grab the portable an' see what we'll find,
            C
Over that side ...

[Verse 3]
                  F       G                   C                 Am
Mornin' baby, I feel like I've been starin' at you for days,
            F            G              C               Am
Is there a little corner, of your heart that I can claim,
                                            F
Cos I ain't slept for days, ginger wine and lemonade,

[Chorus]
        C               Am        F               G
Do you think that it's time we forgot about the local,
       C                   Am                F                G
The real estate man, your christmas tan, the bills and your bi-focals,
C               Am           F        G
Leave the suburban crawl, the city gentry but,
C          Am             F          G          C
Forget it sister,  I ain't goin' to the country,

A7             F                  G            C
Yeah, I ain't goin' to the country,
A7      F            G          C
I ain't goin' to the country,
A7      F            G
I ain't goin' to the country,

[Outro]
C   A7   F   G    C

Перевод песни You Am I — Forget It Sister

tsentrsom.ru
Добавить комментарий