1000Mods — Electric Carve

Текст песни 1000Mods — Electric Carve + аккорды для гитары

Вступление

It's difficult to imprint the rythm with tabs so
you have to listen to the song a couple of times to find the groove.

[Intro]

D|-----------------------------------------------|
A|-----------------------------------------------|
F|-----------------------------------------------|
C|-----3-3-------------3-3-5-3-------------------|x4
G|-5-5-----5-5-3-3-5-5---------5-3-5-5-5-5-5....-|
C|---------------------------------0-0-0-0-0....-|

D|-----------------------------------------------------------------|
A|-----------------------------------------------------------------|
F|-----------------------------------------------------------------|
C|-----3-3---------7-10-7-3-7-10-7-5-7-10-7-5-7-7--7-7-7-7-7-7-7-7-|
G|-5-5-----5-5-3---5-8--5-5-5-8--5-3-5-8--5-3-5-5--5-5-5-5-5-5-5-5-|
C|-----------------------------------------------------------------|


[Verse 1]

D|----------------------------------------------------------------------------------------------|
A|----------------------------------------------------------------------------------------------|
F|----------------------------------------------------------------------------------------------|
C|----------------------------------------------------------------------12----12----12----12----|x2
G|-12-12-12-12-12-12-12-12-14-14-14-14-15-14-14-12-12-12-12-12-12-12-12-12----12----12----12----|
C|-12-12-12-12-12-12-12-12-12-12-12-12-12-12-12-12-12-12-12-12-12-12-12----12----12----12----12-|
 

   Bring the sun           above my head        and everything looks fine
D|----------------------------------------------------------------------------------------------|
A|----------------------------------------------------------------------------------------------|
F|----------------------------------------------------------------------------------------------|
C|----------------------------------------------------------------------12----12----12----12----|
G|-12-12-12-12-12-12-12-12-14-14-14-14-15-14-14-12-12-12-12-12-12-12-12-12----12----12----12----|
C|-12-12-12-12-12-12-12-12-12-12-12-12-12-12-12-12-12-12-12-12-12-12-12----12----12----12----12-|

   And I don't care if you don't care           and if the six is nine
D|---------------------------------- -----------------------------------------------|
A|----------------------------------------------------------------------------------|
F|----------------------------------------------------------------------------------|
C|----------------------------------------------------------------------------------|
G|-12-12-12-12-12-12-12-12-14-14-14-14-15-14-14-12-12-12-12-12-12-12-12-10-10-15-15-|
C|-12-12-12-12-12-12-12-12-12-12-12-12-12-12-12-12-12-12-12-12-12-12-12-10-10-15-15-|



Lost my grip and lost my sound, but everything is cool     (same tabs)   
                              
The road, the wind, the ground, the sea I'm everybody's fool     (same tabs)


[Bridge]

D|-----------------------------------------------------------------|
A|-----------------------------------------------------------------|
F|-----------------------------------------------------------------|
C|-7-7-7-------5-5-5-----------------------------------------------|x2
G|-5-5-5-3-3-3-3-3-3-5-5-5-8-8-8-8-8-8-8-8-10-10-10-10-10-10-10-10-|
C|-------3-3-3-------5-5-5-8-8-8-8-8-8-8-8-10-10-10-10-10-10-10-10-|                                


[Chorus]
                                             This is your chance now solve it
D|-------------------------------------------------------------------------------------------------|
A|-------------------------------------------------------------------------------------------------|
F|-------10-10-------------------10-10-12-10-------------------------------------------------------|
C|-12-12-10-10-12-12-10-10-12-12-10-10-12-10-12-10-12-12-12-12-12-12-12-12-12-12-12-12-12-12-12-12-|x3
G|-12-12-------12-12-10-10-12-12-------------12-10-12-12-12-12-12-12-12-12-12-12-12-12-12-12-12-12-|
C|-------------------------------------------------------------------------------------------------|

                                             This is the place we love it
D|----------------------------------------------------------------------------------------------|
A|----------------------------------------------------------------------------------------------|
F|-------10-10-------------------10-10-12-10----------------------------------------------------|
C|-12-12-10-10-12-12-10-10-12-12-10-10-12-10-12-10-10-10-10-10-10-10-10-10-10-10-10-10-10-10-10-|
G|-12-12-------12-12-10-10-12-12-------------12-10-10-10-10-10-10-10-10-10-10-10-10-10-10-10-10-|
C|----------------------------------------------------------------------------------------------|

D|-------------------|
A|-------------------|
F|-------------------|
C|-7-10-7-3-7-10-7-5-|
G|-5-8--5-5-5-8--5-3-|
C|-------------------|
    

[Verse 2]
   
   Bring the sun above my head and let me do my thing     (same tabs)

   I got the golden ticket babe I'm carving with the wind 
                                                      
   Lost my grip and lost my sound I live in no man's land
                                                     
   But I got my mojo working fine I kickflip in the sand


[Bridge]

D|-----------------------------------------------------------------|
A|-----------------------------------------------------------------|
F|-----------------------------------------------------------------|
C|-7-7-7-------5-5-5-----------------------------------------------|x2
G|-5-5-5-3-3-3-3-3-3-5-5-5-8-8-8-8-8-8-8-8-10-10-10-10-10-10-10-10-|
C|-------3-3-3-------5-5-5-8-8-8-8-8-8-8-8-10-10-10-10-10-10-10-10-|

D|-----------|
A|-----------|
F|-----------|
C|----10~~~~~|
G|-12-10~~~~~|
C|-12--------|


[Chorus]
                                             This is your chance now solve it                               
D|-------------------------------------------------------------------------------------------------|
A|-------------------------------------------------------------------------------------------------|
F|-------10-10-------------------10-10-12-10-------------------------------------------------------|
C|-12-12-10-10-12-12-10-10-12-12-10-10-12-10-12-10-12-12-12-12-12-12-12-12-12-12-12-12-12-12-12-12-|x3
G|-12-12-------12-12-10-10-12-12-------------12-10-12-12-12-12-12-12-12-12-12-12-12-12-12-12-12-12-|
C|-------------------------------------------------------------------------------------------------|

                                             This is the place we love it
D|----------------------------------------------------------------------------------------------|
A|----------------------------------------------------------------------------------------------|
F|-------10-10-------------------10-10-12-10----------------------------------------------------|
C|-12-12-10-10-12-12-10-10-12-12-10-10-12-10-12-10-10-10-10-10-10-10-10-10-10-10-10-10-10-10-10-|
G|-12-12-------12-12-10-10-12-12-------------12-10-10-10-10-10-10-10-10-10-10-10-10-10-10-10-10-|
C|----------------------------------------------------------------------------------------------|


[Outro]

D|----------------------------------------------------------------------------------------|
A|----------------------------------------------------------------------------------------|
F|----------------------------------------------------------------------------------------|
C|----------------------------------------------------------------------10-10-10/15-15-15-|x4
G|-12-12-12-12-12-12-12-12-14-14-14-14-15-14-14-12-12-12-12-12-12-12-12-10-10-10/15-15-15-|
C|-12-12-12-12-12-12-12-12-12-12-12-12-12-12-12-12-12-12-12-12-12-12-12-10-10-10/15-15-15-|

D|-------------------------------------------------------------------|
A|-------------------------------------------------------------------|
F|-------10-10-------------------10-10-12-10-------10-10-10-15-15-15-|
C|-12-12-10-10-12-12-10-10-12-12-10-10-12-10-12-10-10-10-10-15-15-15-|x3
G|-12-12-------12-12-10-10-12-12-------------12-10-10-10-10-15-15-15-|
C|-------------------------------------------------------------------|

D|-------------------------------------------------------------------|
A|-------------------------------------------------------------------|
F|-------10-10-------------------10-10-12-10-------10-10-10-15-15-15-|
C|-12-12-10-10-12-12-10-10-12-12-10-10-12-10-12-10-10-10-10-15-15-15-|
G|-12-12-------12-12-10-10-12-12-------------12-10-10-10-10-15-15-15-|
C|-------------------------------------------------------------------|

D|---------------------------------------------------------------|
A|---------------------------------------------------------------|
F|---------------------------------------------------------------|
C|-10-10-10-15-15-15-10-10-10-15-15-15-10-10-10-15-15-15-12~~~~~~|
G|-10-10-10-15-15-15-10-10-10-15-15-15-10-10-10-15-15-15-12~~~~~~|
C|-10-10-10-15-15-15-10-10-10-15-15-15-10-10-10-15-15-15-12~~~~~~|



************************************

| ~  Vibrato
| /  Slide up
 

************************************

Перевод песни 1000Mods — Electric Carve

tsentrsom.ru
Добавить комментарий