1000Mods — Low

Текст песни 1000Mods — Low + аккорды для гитары

Вступление

Chords:
  C     C#    Bb    Eb     F          
D|--| D|--| D|--| D|--| D|--|                      
A|--| A|--| A|--| A|--| A|--|                    
F|--| F|--| F|--| F|--| F|--|                      
C|12| C|13| C|10| C|15| C|17|                          
G|12| G|13| G|10| G|15| G|17|                               
C|12| C|13| C|10| C|15| C|17|                          


[Intro]

D|---------------------------------------------------------------------------|
A|---------------------------------------------------------------------------|
F|-------------------10~--------12~12~10~------------------------------------|
C|-10~h12--12---12------12--12-----------12---12---12---12---12---12---12----|x7
G|---------------------------------------------------------------------------|
C|--------0---0----0------0----0------------0----0----0----0----0----0----0--|


D|------------------------------|
A|------------------------------|
F|------------------------------|
C|-12-12-12-12-12-12-12-10-12~~|
G|-12-12-12-12-12-12-12-10-12~~|
C|-12-12-12-12-12-12-12-10-12~~|


[Verse]
By the look on your face I can feel the fire into my eyes that are turning blue
D|------------------------------------------------------------------------------------|                     
A|------------------------------------------------------------------------------------|                    
F|------------------------------------------------------------------------------------|                      
C|--------------------12-12-12.....---------------------------------------10h12-12-12-|             
G|--------------------12-12-12.....---------------------------------------10h12-12-12-|           
C|--------------------12-12-12.....---------------------------------------10h12-12-12-|  

  I can't believe you can fly me higher into the sun and it gets me through        
D|------------------------------------------------------------------------------|
A|------------------------------------------------------------------------------|
F|----------10~~~---------------------------------------------------------------|
C|-12-12-12-10~~~12-12.....-----------------------------------------10h12-12-12-|
G|-12-12-12------12-12.....-----------------------------------------10h12-12-12-|
C|-12-12-12------12-12.....-----------------------------------------10h12-12-12-|

  Wake up and see how the greats have fallen buried in bones in a sea of red
D|---------------------------------------------------------------------------------|                     
A|---------------------------------------------------------------------------------|                    
F|---------------------------------------------------------------------------------|                      
C|-12-12-12.....-------------------------------------------------------10h12-12-12-|             
G|-12-12-12.....-------------------------------------------------------10h12-12-12-|           
C|-12-12-12.....-------------------------------------------------------10h12-12-12-|

  can't get enough of my body rottin' help me to rise 'cause I'm almost        
D|--------------------------------------------------------------------|
A|--------------------------------------------------------------------|
F|----------10~~~-----------------------------------------------------|
C|-12-12-12-10~~~12-12.....-------------------------------------------|
G|-12-12-12------12-12.....-------------------------------------------|
C|-12-12-12------12-12.....-------------------------------------------|


[Bridge]
  dead.
D|---------------------------------------------------------------------------|
A|---------------------------------------------------------------------------|
F|------------------10~----------12~12~10~-----------------------------------|
C|-10h12---12--12------12---12------------12---12---12---12---12---12---12---|x2
G|---------------------------------------------------------------------------|
C|-------0--------0-------0----0-------------0----0----0----0----0----0----0-|


[Chorus]
Bb C     Eb      Bb C
   The shoots are low
           F       Bb C
   like I said it
            Eb     F   Eb C Bb C
   they're turning me
        Eb       Bb C
   The shoots are low
             F     Bb C
   don't forget it
           Eb     F  Eb C#
   right on my knee


[Verse]
     And I want you to know that it ain't so easy looking at you from the other side      
D|------------------------------------------------------------------------------------------|
A|------------------------------------------------------------------------------------------|
F|----------------------10~~~---------------------------------------------------------------|
C|-10h12-12-12-12-12-12-10~~~12-12.....-----------------------------------------10h12-12-12-|
G|-10h12-12-12-12-12-12------12-12.....-----------------------------------------10h12-12-12-|
C|-10h12-12-12-12-12-12------12-12.....-----------------------------------------10h12-12-12-|

   I'm losin' my mind and I'm gettin' dizzy throw me away throw me far and wide
D|------------------------------------------------------------------------------------|
A|------------------------------------------------------------------------------------|
F|----------------10~~~---------------------------------------------------------------|
C|-12-12-12-12-12-10~~~12-12.....-----------------------------------------10h12-12-12-|
G|-12-12-12-12-12------12-12.....-----------------------------------------10h12-12-12-|
C|-12-12-12-12-12------12-12.....-----------------------------------------10h12-12-12-|

    I want you to rise if you see me cryin' look at my eyes they are blue no more
D|---------------------------------------------------------------------------------------|
A|---------------------------------------------------------------------------------------|
F|----------------10~~~------------------------------------------------------------------|
C|-12-12-12-12-12-10~~~12-12.....--------------------------------------------10h12-12-12-|
G|-12-12-12-12-12------12-12.....--------------------------------------------10h12-12-12-|
C|-12-12-12-12-12------12-12.....--------------------------------------------10h12-12-12-|

    I want you to rise if you see me cryin' look at my eyes they are blue no more
D|---------------------------------------------------------------------------------------|
A|---------------------------------------------------------------------------------------|
F|----------------10~~~------------------------------------------------------------------|
C|-12-12-12-12-12-10~~~12-12.....--------------------------------------------10h12-12-12-|
G|-12-12-12-12-12------12-12.....--------------------------------------------10h12-12-12-|
C|-12-12-12-12-12------12-12.....--------------------------------------------10h12-12-12-|
 
    Tell me your prize get away and leave me look at my head as it's burnin' low
D|--------------------------------------------------------------------------|
A|--------------------------------------------------------------------------|
F|----------------10~~~-----------------------------------------------------|
C|-12-12-12-12-12-10~~~12-12.....-------------------------------------------|
G|-12-12-12-12-12------12-12.....-------------------------------------------|
C|-12-12-12-12-12------12-12.....-------------------------------------------|


[Bridge]
   low.
D|---------------------------------------------------------------------------|
A|---------------------------------------------------------------------------|
F|------------------10~----------12~12~10~-----------------------------------|
C|-10h12---12--12------12---12------------12---12---12---12---12---12---12---|x2
G|---------------------------------------------------------------------------|
C|-------0--------0-------0----0-------------0----0----0----0----0----0----0-|


[Chorus]
Bb C     Eb      Bb C
   The shoots are low
           F       Bb C
   like I said it
            Eb     F   Eb C Bb C
   they're turning me
        Eb       Bb C
   The shoots are low
             F     Bb C
   don't forget it
           Eb     F  Eb C#
   right on my knee


[Solo] (Improvisation):

D|-----10-----10-----10-----10-----10--------------------------|
A|-----10-----10-----10-----10-----10-13b~~13b-10-12b~10-13b~~-|
F|-12b----12b----12b----12b----12b-----------------------------|
C|-------------------------------------------------------------|
G|-------------------------------------------------------------|
C|-------------------------------------------------------------|

D|-10-13p10----13p10----13p10----------------------------|
A|----------13-------13-------13-13b~~b13-10-------------|
F|-------------------------------------------12b12-10----|
C|----------------------------------------------------12-|
G|-------------------------------------------------------|
C|-------------------------------------------------------|

D|-10--10---------------------------------------------------------------------------------------|
A|-13b-13b-10h13p10----10h13p10----10h13p----10h13p----101h13p----10h13p----10h13p----10h13p----|
F|------------------12----------12--------12--------12---------12--------12--------12--------12-|
C|----------------------------------------------------------------------------------------------|
G|----------------------------------------------------------------------------------------------|
C|----------------------------------------------------------------------------------------------|

D|------------------------------------------------------------------------------|
A|-13b~~b13-10------------------------------------------------------------------|
F|-------------12-10-12--10h12p10h12p10h12p10h12p10h12p10h12p10h12p10-----------|
C|--------------------------------------------------------------------12-10-12~~|
G|------------------------------------------------------------------------------|
C|------------------------------------------------------------------------------|

D|----------------------------------------------------------------------------------------------------|
A|--------------------------------------------13------------------------------------------------------|
F|-12b-10------------------------------10-12b---b12-10-12-10----10h12p10h12p10h12p10h12p10----10-12b~~|
C|--------12-10h12--10h12-12-12-10~~12-----------------------12----------------------------12---------|
G|----------------------------------------------------------------------------------------------------|
C|----------------------------------------------------------------------------------------------------|
  The shoots are low  like I said it  they're turning me              The shoots are low  don't forget it 
D|--------------------------------------------------------------------------------------------------------|
A|----------------------------------------------------------------------------------13--------------------|
F|-------10-----10~-10----10-12-10-10-------10-12-10-12~~12-10-12-10----------10-12b--b12-10-10----10-12~~|
C|-10-12-10-12--10~-10-12-10-12-10-10-12-12-10-12-10-12~~12-10-12-10-12-10~12-------------------12--------|
G|--------------------------------------------------------------------------------------------------------|
C|--------------------------------------------------------------------------------------------------------|
   right on my knee
D|--------------------------------------------------------------------------------------|
A|--------------------------------------------------------------------------------------|
F|-10----10-----------------------------------------------------------------------------|
C|----12----12-10-12~-12-10h12p10----10-------------------------------------------------|
G|--------------------------------12----12-12-11-11-10-10-9-9-8-8-7-7-6-6-5-5-4-4--3-5~~|
C|--------------------------------------------------------------------------------------|


************************************

| ~  Vibrato
|   Slide down
| b  Bend
| h  Hammer on
| p  Pull off

************************************

Перевод песни 1000Mods — Low

tsentrsom.ru
Добавить комментарий