AC/DC — Aint No Fun Waiting Round To Be A Millionaire

Текст песни AC/DC — Aint No Fun Waiting Round To Be A Millionaire + аккорды для гитары

Вступление

[Intro]

e|-----------------|-------------------------------------|
B|--3-----------3--|-------------------------------------|
G|--2-----------2--|------0------0-----------0-----0--0--|
D|--0----3h4----0--|----0------0------0----0-----0----0--| (x2)
A|-----------------|---------0------2----3-----2---------|
E|-----------------|--3-------------------------------3--|

e|---------------|-----------------|-----------------|-----------------|
B|---------------|-----------------|-----------------|-----------------|
G|--2--2---4--2--|--4--2-2---4--2--|--4--2-2---4--2--|--4--2-2---4--2--|
D|--2--2---2--2--|--2--2-2---2--2--|--2--2-2---2--2--|--2--2-2---2--2--| (Continues into the verse)
A|---------------|-----------------|-----------------|-----------------|
E|---------------|-----------------|-----------------|-----------------|


************************************

| h   Hammer-on

************************************

Перевод песни AC/DC — Aint No Fun Waiting Round To Be A Millionaire

tsentrsom.ru
Добавить комментарий