AC/DC — Shake Your Foundations

Текст песни AC/DC — Shake Your Foundations + аккорды для гитары

Вступление

e|-----------|----------------------------------------------------
B|--8-----8--|----10-------10-------8-----10-------10-------8~~~~-
G|--7-----7--|----7--------7--------7-----7--------7--------7~~~~-
D|-----0-----|-0-----0--0-----0--0-----0-----0--0-----0--0--------
A|-----------|----------------------------------------------------
E|-----------|----------------------------------------------------

-----------3----------------------------------------------------|
-----5-----0-----------6--------5-----8--8-----8----------------|
-----5-----0-----------7--------5-----7--7-----7----------------|
--0-----0-----------0--------0-----0--------0-------------------|
----------------------------------------------------------------|
----------------------------------------------------------------|

Перевод песни AC/DC — Shake Your Foundations

tsentrsom.ru
Добавить комментарий