Afi — Midnight Sun

Текст песни Afi — Midnight Sun + аккорды для гитары

Вступление

Intro:
detune all strings until they growl
--0--------
--0--------
--0--------
--0--------

verse:
(repeat twice)
-----------------------------------------------------
-----------------------------------------------------
--7--7-5-7--------------10--7--7-5-7-------------10--
-----------6--8--8-7-9---------------6--8--8-7-9-----

chorus:
(repeat as necessary)
----------------------
----------------------
----------------------
--0----8----5----7----

whoa part:
---------------------------------------------------------------
---------------------------------------------------------------
--7--5-7-5-7----------------10---7--5-7-5-7----------------10--
---------------8--6-8-7-9---------------------8--6-8-7-9-------

Перевод песни Afi — Midnight Sun

tsentrsom.ru
Добавить комментарий